  0
SECTION
  2
HEADER
  9
$ACADVER
  1
AC1018
  9
$ACADMAINTVER
 70
     0
  9
$DWGCODEPAGE
  3
ANSI_1250
  9
$INSBASE
 10
0.0
 20
0.0
 30
0.0
  9
$EXTMIN
 10
32.42229611
 20
184.56226216
 30
0.0
  9
$EXTMAX
 10
1168.72677481
 20
0.0
 30
0.0
  9
$LIMMIN
 10
0.0
 20
0.0
  9
$LIMMAX
 10
420.0
 20
297.0
  9
$ORTHOMODE
 70
     0
  9
$REGENMODE
 70
     1
  9
$FILLMODE
 70
     1
  9
$QTEXTMODE
 70
     0
  9
$MIRRTEXT
 70
     1
  9
$LTSCALE
 40
1.0
  9
$ATTMODE
 70
     1
  9
$TEXTSIZE
 40
2.5
  9
$TRACEWID
 40
1.0
  9
$TEXTSTYLE
  7
Standard
  9
$CLAYER
  8
0
  9
$CELTYPE
  6
ByLayer
  9
$CECOLOR
 62
   256
  9
$CELTSCALE
 40
1.0
  9
$DISPSILH
 70
     0
  9
$DIMSCALE
 40
1.0
  9
$DIMASZ
 40
2.5
  9
$DIMEXO
 40
0.625
  9
$DIMDLI
 40
3.75
  9
$DIMRND
 40
0.0
  9
$DIMDLE
 40
0.0
  9
$DIMEXE
 40
1.25
  9
$DIMTP
 40
0.0
  9
$DIMTM
 40
0.0
  9
$DIMTXT
 40
2.5
  9
$DIMCEN
 40
2.5
  9
$DIMTSZ
 40
0.0
  9
$DIMTOL
 70
     0
  9
$DIMLIM
 70
     0
  9
$DIMTIH
 70
     0
  9
$DIMTOH
 70
     0
  9
$DIMSE1
 70
     0
  9
$DIMSE2
 70
     0
  9
$DIMTAD
 70
     1
  9
$DIMZIN
 70
     8
  9
$DIMBLK
  1

  9
$DIMASO
 70
     1
  9
$DIMSHO
 70
     1
  9
$DIMPOST
  1

  9
$DIMAPOST
  1

  9
$DIMALT
 70
     0
  9
$DIMALTD
 70
     3
  9
$DIMALTF
 40
0.03937007874016
  9
$DIMLFAC
 40
1.0
  9
$DIMTOFL
 70
     1
  9
$DIMTVP
 40
0.0
  9
$DIMTIX
 70
     0
  9
$DIMSOXD
 70
     0
  9
$DIMSAH
 70
     0
  9
$DIMBLK1
  1

  9
$DIMBLK2
  1

  9
$DIMSTYLE
  2
ISO-25
  9
$DIMCLRD
 70
     0
  9
$DIMCLRE
 70
     0
  9
$DIMCLRT
 70
     0
  9
$DIMTFAC
 40
1.0
  9
$DIMGAP
 40
0.625
  9
$DIMJUST
 70
     0
  9
$DIMSD1
 70
     0
  9
$DIMSD2
 70
     0
  9
$DIMTOLJ
 70
     0
  9
$DIMTZIN
 70
     8
  9
$DIMALTZ
 70
     0
  9
$DIMALTTZ
 70
     0
  9
$DIMUPT
 70
     0
  9
$DIMDEC
 70
     2
  9
$DIMTDEC
 70
     2
  9
$DIMALTU
 70
     2
  9
$DIMALTTD
 70
     3
  9
$DIMTXSTY
  7
Standard
  9
$DIMAUNIT
 70
     0
  9
$DIMADEC
 70
     0
  9
$DIMALTRND
 40
0.0
  9
$DIMAZIN
 70
     0
  9
$DIMDSEP
 70
    44
  9
$DIMATFIT
 70
     3
  9
$DIMFRAC
 70
     0
  9
$DIMLDRBLK
  1

  9
$DIMLUNIT
 70
     2
  9
$DIMLWD
 70
    -2
  9
$DIMLWE
 70
    -2
  9
$DIMTMOVE
 70
     0
  9
$LUNITS
 70
     2
  9
$LUPREC
 70
     4
  9
$SKETCHINC
 40
1.0
  9
$FILLETRAD
 40
10.0
  9
$AUNITS
 70
     0
  9
$AUPREC
 70
     0
  9
$MENU
  1
.
  9
$ELEVATION
 40
0.0
  9
$PELEVATION
 40
0.0
  9
$THICKNESS
 40
0.0
  9
$LIMCHECK
 70
     0
  9
$CHAMFERA
 40
10.0
  9
$CHAMFERB
 40
10.0
  9
$CHAMFERC
 40
20.0
  9
$CHAMFERD
 40
0.0
  9
$SKPOLY
 70
     0
  9
$TDCREATE
 40
2459289.642392211
  9
$TDUCREATE
 40
2459289.600725544
  9
$TDUPDATE
 40
2459289.642392211
  9
$TDUUPDATE
 40
2459289.600725544
  9
$TDINDWG
 40
0.0000000116
  9
$TDUSRTIMER
 40
0.0000000116
  9
$USRTIMER
 70
     1
  9
$ANGBASE
 50
0.0
  9
$ANGDIR
 70
     0
  9
$PDMODE
 70
     0
  9
$PDSIZE
 40
0.0
  9
$PLINEWID
 40
0.0
  9
$SPLFRAME
 70
     0
  9
$SPLINETYPE
 70
     6
  9
$SPLINESEGS
 70
     8
  9
$HANDSEED
  5
70
  9
$SURFTAB1
 70
     6
  9
$SURFTAB2
 70
     6
  9
$SURFTYPE
 70
     6
  9
$SURFU
 70
     6
  9
$SURFV
 70
     6
  9
$UCSBASE
  2

  9
$UCSNAME
  2

  9
$UCSORG
 10
0.0
 20
0.0
 30
0.0
  9
$UCSXDIR
 10
1.0
 20
0.0
 30
0.0
  9
$UCSYDIR
 10
0.0
 20
1.0
 30
0.0
  9
$UCSORTHOREF
  2

  9
$UCSORTHOVIEW
 70
     0
  9
$UCSORGTOP
 10
0.0
 20
0.0
 30
0.0
  9
$UCSORGBOTTOM
 10
0.0
 20
0.0
 30
0.0
  9
$UCSORGLEFT
 10
0.0
 20
0.0
 30
0.0
  9
$UCSORGRIGHT
 10
0.0
 20
0.0
 30
0.0
  9
$UCSORGFRONT
 10
0.0
 20
0.0
 30
0.0
  9
$UCSORGBACK
 10
0.0
 20
0.0
 30
0.0
  9
$PUCSBASE
  2

  9
$PUCSNAME
  2

  9
$PUCSORG
 10
0.0
 20
0.0
 30
0.0
  9
$PUCSXDIR
 10
1.0
 20
0.0
 30
0.0
  9
$PUCSYDIR
 10
0.0
 20
1.0
 30
0.0
  9
$PUCSORTHOREF
  2

  9
$PUCSORTHOVIEW
 70
     0
  9
$PUCSORGTOP
 10
0.0
 20
0.0
 30
0.0
  9
$PUCSORGBOTTOM
 10
0.0
 20
0.0
 30
0.0
  9
$PUCSORGLEFT
 10
0.0
 20
0.0
 30
0.0
  9
$PUCSORGRIGHT
 10
0.0
 20
0.0
 30
0.0
  9
$PUCSORGFRONT
 10
0.0
 20
0.0
 30
0.0
  9
$PUCSORGBACK
 10
0.0
 20
0.0
 30
0.0
  9
$USERI1
 70
     0
  9
$USERI2
 70
     0
  9
$USERI3
 70
     0
  9
$USERI4
 70
     0
  9
$USERI5
 70
     0
  9
$USERR1
 40
0.0
  9
$USERR2
 40
0.0
  9
$USERR3
 40
0.0
  9
$USERR4
 40
0.0
  9
$USERR5
 40
0.0
  9
$WORLDVIEW
 70
     1
  9
$SHADEDGE
 70
     3
  9
$SHADEDIF
 70
    70
  9
$TILEMODE
 70
     1
  9
$MAXACTVP
 70
    64
  9
$PINSBASE
 10
0.0
 20
0.0
 30
0.0
  9
$PLIMCHECK
 70
     0
  9
$PEXTMIN
 10
1.000000000000000E+20
 20
1.000000000000000E+20
 30
1.000000000000000E+20
  9
$PEXTMAX
 10
-1.000000000000000E+20
 20
-1.000000000000000E+20
 30
-1.000000000000000E+20
  9
$PLIMMIN
 10
0.0
 20
0.0
  9
$PLIMMAX
 10
420.0
 20
297.0
  9
$UNITMODE
 70
     0
  9
$VISRETAIN
 70
     1
  9
$PLINEGEN
 70
     0
  9
$PSLTSCALE
 70
     1
  9
$TREEDEPTH
 70
  3020
  9
$CMLSTYLE
  2
Standard
  9
$CMLJUST
 70
     0
  9
$CMLSCALE
 40
20.0
  9
$PROXYGRAPHICS
 70
     1
  9
$MEASUREMENT
 70
     1
  9
$CELWEIGHT
370
    -1
  9
$ENDCAPS
280
     0
  9
$JOINSTYLE
280
     0
  9
$LWDISPLAY
290
     0
  9
$INSUNITS
 70
     4
  9
$HYPERLINKBASE
  1

  9
$STYLESHEET
  1

  9
$XEDIT
290
     1
  9
$CEPSNTYPE
380
     0
  9
$PSTYLEMODE
290
     1
  9
$FINGERPRINTGUID
  2
{6551EFD8-70B8-4881-9FE6-61E02AD488E3}
  9
$VERSIONGUID
  2
{FAEB1C32-E019-11D5-929B-00C0DF256EC4}
  9
$EXTNAMES
290
     1
  9
$PSVPSCALE
 40
0.0
  9
$OLESTARTUP
290
     0
  9
$SORTENTS
280
   127
  9
$INDEXCTL
280
     0
  9
$HIDETEXT
280
     1
  9
$XCLIPFRAME
290
     0
  9
$HALOGAP
280
     0
  9
$OBSCOLOR
 70
   257
  9
$OBSLTYPE
280
     0
  9
$INTERSECTIONDISPLAY
280
     0
  9
$INTERSECTIONCOLOR
 70
   257
  9
$DIMASSOC
280
     2
  9
$PROJECTNAME
  1

  0
ENDSEC
  0
SECTION
  2
CLASSES
  0
CLASS
  1
ACDBDICTIONARYWDFLT
  2
AcDbDictionaryWithDefault
  3
ObjectDBX Classes
 90
        0
 91
        3
280
     0
281
     0
  0
ENDSEC
  0
SECTION
  2
TABLES
  0
TABLE
  2
VPORT
  5
8
330
0
100
AcDbSymbolTable
 70
     1
  0
VPORT
  5
29
330
8
100
AcDbSymbolTableRecord
100
AcDbViewportTableRecord
  2
*Active
 70
     0
 10
0.0
 20
0.0
 11
1.0
 21
1.0
 12
0.0
 22
0.0
 13
0.0
 23
0.0
 14
10.0
 24
10.0
 15
10.0
 25
10.0
 16
0.0
 26
0.0
 36
1.0
 17
1949.585316985359
 27
676.6445184855211
 37
0.0
 40
1003.84780290312
 41
3.896021439981397
 42
50.0
 43
0.0
 44
0.0
 50
0.0
 51
0.0
 71
     0
 72
   100
 73
     1
 74
     3
 75
     0
 76
     0
 77
     0
 78
     0
281
     0
 65
     1
110
0.0
120
0.0
130
0.0
111
1.0
121
0.0
131
0.0
112
0.0
122
1.0
132
0.0
 79
     0
146
0.0
  0
ENDTAB
  0
TABLE
  2
LTYPE
  5
5
330
0
100
AcDbSymbolTable
 70
     5
  0
LTYPE
  5
14
330
5
100
AcDbSymbolTableRecord
100
AcDbLinetypeTableRecord
  2
ByBlock
 70
     0
  3

 72
    65
 73
     0
 40
0.0
  0
LTYPE
  5
15
330
5
100
AcDbSymbolTableRecord
100
AcDbLinetypeTableRecord
  2
ByLayer
 70
     0
  3

 72
    65
 73
     0
 40
0.0
  0
LTYPE
  5
16
330
5
100
AcDbSymbolTableRecord
100
AcDbLinetypeTableRecord
  2
Continuous
 70
     0
  3
Solid line
 72
    65
 73
     0
 40
0.0
  0
LTYPE
  5
3A
330
5
100
AcDbSymbolTableRecord
100
AcDbLinetypeTableRecord
  2
Dashed
 70
     0
  3
__ __ __ __ __ __ __ __ __ __ __ __ __ __ __ __
 72
    65
 73
     2
 40
0.75
 49
0.5
 74
     0
 49
-0.25
 74
     0
  0
LTYPE
  5
3B
330
5
100
AcDbSymbolTableRecord
100
AcDbLinetypeTableRecord
  2
Dot
 70
     0
  3
_ _ _ _ _ _ _ _ _ _ _ _ _ _ _ _
 72
    65
 73
     2
 40
0.2
 49
0.1
 74
     0
 49
-0.1
 74
     0
  0
LTYPE
  5
3C
330
5
100
AcDbSymbolTableRecord
100
AcDbLinetypeTableRecord
  2
Center
 70
     0
  3
__ _ __ _ __ _ __ _ __ _ __ _ __ _ __ _ __
 72
    65
 73
     4
 40
1.45
 49
0.75
 74
     0
 49
-0.3
 74
     0
 49
0.1
 74
     0
 49
-0.3
 74
     0
  0
LTYPE
  5
3D
330
5
100
AcDbSymbolTableRecord
100
AcDbLinetypeTableRecord
  2
Phantom
 70
     0
  3
__ _ _ __ _ _ __ _ _ __ _ _ __ _ _ __ _ _
 72
    65
 73
     6
 40
1.75
 49
0.75
 74
     0
 49
-0.3
 74
     0
 49
0.1
 74
     0
 49
-0.3
 74
     0
 49
0.1
 74
     0
 49
-0.3
 74
     0
  0
ENDTAB
  0
TABLE
  2
LAYER
  5
2
330
0
100
AcDbSymbolTable
 70
    17
  0
LAYER
  5
10
330
2
100
AcDbSymbolTableRecord
100
AcDbLayerTableRecord
  2
0
 70
     0
 62
     7
  6
Continuous
370
    -3
390
F
  0
LAYER
  5
2A
330
2
100
AcDbSymbolTableRecord
100
AcDbLayerTableRecord
  2
Level 0
 70
     0
 62
    18
420
        0
  6
Continuous
370
    -3
390
F
  0
LAYER
  5
2B
330
2
100
AcDbSymbolTableRecord
100
AcDbLayerTableRecord
  2
Level 1
 70
     0
 62
   176
420
      128
  6
Continuous
370
    -3
390
F
  0
LAYER
  5
2C
330
2
100
AcDbSymbolTableRecord
100
AcDbLayerTableRecord
  2
Level 2
 70
     0
 62
    96
420
    32768
  6
Continuous
370
    -3
390
F
  0
LAYER
  5
2D
330
2
100
AcDbSymbolTableRecord
100
AcDbLayerTableRecord
  2
Level 3
 70
     0
 62
   136
420
    32896
  6
Continuous
370
    -3
390
F
  0
LAYER
  5
2E
330
2
100
AcDbSymbolTableRecord
100
AcDbLayerTableRecord
  2
Level 4
 70
     0
 62
    16
420
  8388608
  6
Continuous
370
    -3
390
F
  0
LAYER
  5
2F
330
2
100
AcDbSymbolTableRecord
100
AcDbLayerTableRecord
  2
Level 5
 70
     0
 62
   216
420
  8388736
  6
Continuous
370
    -3
390
F
  0
LAYER
  5
30
330
2
100
AcDbSymbolTableRecord
100
AcDbLayerTableRecord
  2
Level 6
 70
     0
 62
    56
420
  8421376
  6
Continuous
370
    -3
390
F
  0
LAYER
  5
31
330
2
100
AcDbSymbolTableRecord
100
AcDbLayerTableRecord
  2
Level 7
 70
     0
 62
     9
420
 12632256
  6
Continuous
370
    -3
390
F
  0
LAYER
  5
32
330
2
100
AcDbSymbolTableRecord
100
AcDbLayerTableRecord
  2
Level 8
 70
     0
 62
     8
420
  8421504
  6
Continuous
370
    -3
390
F
  0
LAYER
  5
33
330
2
100
AcDbSymbolTableRecord
100
AcDbLayerTableRecord
  2
Level 9
 70
     0
 62
     5
420
      255
  6
Continuous
370
    -3
390
F
  0
LAYER
  5
34
330
2
100
AcDbSymbolTableRecord
100
AcDbLayerTableRecord
  2
Level 10
 70
     0
 62
     3
420
    65280
  6
Continuous
370
    -3
390
F
  0
LAYER
  5
35
330
2
100
AcDbSymbolTableRecord
100
AcDbLayerTableRecord
  2
Level 11
 70
     0
 62
     4
420
    65535
  6
Continuous
370
    -3
390
F
  0
LAYER
  5
36
330
2
100
AcDbSymbolTableRecord
100
AcDbLayerTableRecord
  2
Level 12
 70
     0
 62
     1
420
 16711680
  6
Continuous
370
    -3
390
F
  0
LAYER
  5
37
330
2
100
AcDbSymbolTableRecord
100
AcDbLayerTableRecord
  2
Level 13
 70
     0
 62
     3
420
    65280
  6
Continuous
370
    -3
390
F
  0
LAYER
  5
38
330
2
100
AcDbSymbolTableRecord
100
AcDbLayerTableRecord
  2
Level 14
 70
     0
 62
     2
420
 16776960
  6
Continuous
370
    -3
390
F
  0
LAYER
  5
39
330
2
100
AcDbSymbolTableRecord
100
AcDbLayerTableRecord
  2
Level 15
 70
     0
 62
     7
420
 16777215
  6
Continuous
370
    -3
390
F
  0
ENDTAB
  0
TABLE
  2
STYLE
  5
3
330
0
100
AcDbSymbolTable
 70
     1
  0
STYLE
  5
11
330
3
100
AcDbSymbolTableRecord
100
AcDbTextStyleTableRecord
  2
Standard
 70
     0
 40
0.0
 41
1.0
 50
0.0
 71
     0
 42
2.5
  3
txt
  4

  0
ENDTAB
  0
TABLE
  2
VIEW
  5
6
330
0
100
AcDbSymbolTable
 70
     0
  0
ENDTAB
  0
TABLE
  2
UCS
  5
7
330
0
100
AcDbSymbolTable
 70
     0
  0
ENDTAB
  0
TABLE
  2
APPID
  5
9
330
0
100
AcDbSymbolTable
 70
     1
  0
APPID
  5
12
330
9
100
AcDbSymbolTableRecord
100
AcDbRegAppTableRecord
  2
ACAD
 70
     0
  0
ENDTAB
  0
TABLE
  2
DIMSTYLE
  5
A
330
0
100
AcDbSymbolTable
 70
     1
100
AcDbDimStyleTable
  0
DIMSTYLE
105
27
330
A
100
AcDbSymbolTableRecord
100
AcDbDimStyleTableRecord
  2
ISO-25
 70
     0
 41
2.5
 42
0.625
 43
3.75
 44
1.25
 73
     0
 74
     0
 77
     1
 78
     8
140
2.5
141
2.5
143
0.03937007874016
147
0.625
171
     3
172
     1
271
     2
272
     2
274
     3
278
    44
283
     0
284
     8
340
11
  0
ENDTAB
  0
TABLE
  2
BLOCK_RECORD
  5
1
330
0
100
AcDbSymbolTable
 70
     1
  0
BLOCK_RECORD
  5
1F
330
1
100
AcDbSymbolTableRecord
100
AcDbBlockTableRecord
  2
*Model_Space
340
22
  0
BLOCK_RECORD
  5
1B
330
1
100
AcDbSymbolTableRecord
100
AcDbBlockTableRecord
  2
*Paper_Space
340
1E
  0
BLOCK_RECORD
  5
23
330
1
100
AcDbSymbolTableRecord
100
AcDbBlockTableRecord
  2
*Paper_Space0
340
26
  0
ENDTAB
  0
ENDSEC
  0
SECTION
  2
BLOCKS
  0
BLOCK
  5
20
330
1F
100
AcDbEntity
  8
0
100
AcDbBlockBegin
  2
*Model_Space
 70
     0
 71
     0
 10
0.0
 20
0.0
 30
0.0
  3
*Model_Space
  1

  0
ENDBLK
  5
21
330
1F
100
AcDbEntity
  8
0
100
AcDbBlockEnd
  0
BLOCK
  5
1C
330
1B
100
AcDbEntity
 67
     1
  8
0
100
AcDbBlockBegin
  2
*Paper_Space
 70
     0
 71
     0
 10
0.0
 20
0.0
 30
0.0
  3
*Paper_Space
  1

  0
ENDBLK
  5
1D
330
1B
100
AcDbEntity
 67
     1
  8
0
100
AcDbBlockEnd
  0
BLOCK
  5
24
330
23
100
AcDbEntity
  8
0
100
AcDbBlockBegin
  2
*Paper_Space0
 70
     0
 71
     0
 10
0.0
 20
0.0
 30
0.0
  3
*Paper_Space0
  1

  0
ENDBLK
  5
25
330
23
100
AcDbEntity
  8
0
100
AcDbBlockEnd
  0
ENDSEC
  0
SECTION
  2
ENTITIES
  0
LINE
  5
3E
330
1F
100
AcDbEntity
  8
Level 13
  6
Continuous
 62
     6
420
 16711935
370
     5
100
AcDbLine
 10
715.171426749787
 20
184.562262160462
 30
0.0
 11
2780.83166895553
 21
185.436201811799
 31
0.0
  0
LINE
  5
3F
330
1F
100
AcDbEntity
  8
Level 13
  6
Continuous
 62
     6
420
 16711935
370
     5
100
AcDbLine
 10
715.171426749787
 20
184.562262160462
 30
0.0
 11
32.4222961085068
 21
1124.82691884419
 31
0.0
  0
LINE
  5
40
330
1F
100
AcDbEntity
  8
Level 13
  6
Continuous
 62
     6
420
 16711935
370
     5
100
AcDbLine
 10
2780.83166895553
 20
185.436201811799
 30
0.0
 11
3866.74833786221
 21
973.946815684948
 31
0.0
  0
ARC
  5
41
330
1F
100
AcDbEntity
  8
Level 13
  6
Continuous
 62
     3
420
    65280
370
     5
100
AcDbCircle
 10
87.9566750565699
 20
1158.9726763384
 30
0.0
 40
5.0
100
AcDbArc
 50
35.9843176781523
 51
125.984317678152
  0
LINE
  5
42
330
1F
100
AcDbEntity
  8
Level 13
  6
Continuous
 62
     3
420
    65280
370
     5
100
AcDbLine
 10
32.4222961085068
 20
1124.82691884419
 30
0.0
 11
85.0188560779067
 21
1163.01856556681
 31
0.0
  0
ARC
  5
43
330
1F
100
AcDbEntity
  8
Level 13
  6
Continuous
 62
     3
420
    65280
370
     5
100
AcDbCircle
 10
200.634809153803
 20
1020.81465776414
 30
0.0
 40
5.0
100
AcDbArc
 50
215.984317678152
 51
305.984317678152
  0
LINE
  5
44
330
1F
100
AcDbEntity
  8
Level 13
  6
Continuous
 62
     3
420
    65280
370
     5
100
AcDbLine
 10
196.588919925388
 20
1017.87683878547
 30
0.0
 11
92.002564284985
 21
1161.91049531706
 31
0.0
  0
ARC
  5
45
330
1F
100
AcDbEntity
  8
Level 13
  6
Continuous
 62
     3
420
    65280
370
     5
100
AcDbCircle
 10
414.469153451679
 20
1163.72677481058
 30
0.0
 40
5.0
100
AcDbArc
 50
35.9843176781523
 51
125.984317678152
  0
LINE
  5
46
330
1F
100
AcDbEntity
  8
Level 13
  6
Continuous
 62
     3
420
    65280
370
     5
100
AcDbLine
 10
203.572628132466
 20
1016.76876853572
 30
0.0
 11
411.531334473016
 21
1167.772664039
 31
0.0
  0
ARC
  5
47
330
1F
100
AcDbEntity
  8
Level 13
  6
Continuous
 62
     3
420
    65280
370
     5
100
AcDbCircle
 10
535.373180689169
 20
1014.24026639676
 30
0.0
 40
5.0
100
AcDbArc
 50
215.984317678152
 51
305.984317678152
  0
LINE
  5
48
330
1F
100
AcDbEntity
  8
Level 13
  6
Continuous
 62
     3
420
    65280
370
     5
100
AcDbLine
 10
531.327291460754
 20
1011.3024474181
 30
0.0
 11
418.515042680094
 21
1166.66459378925
 31
0.0
  0
ARC
  5
49
330
1F
100
AcDbEntity
  8
Level 13
  6
Continuous
 62
     3
420
    65280
370
     5
100
AcDbCircle
 10
752.484897541147
 20
1159.53216369571
 30
0.0
 40
5.0
100
AcDbArc
 50
36.5630432437588
 51
125.984317678152
  0
LINE
  5
4A
330
1F
100
AcDbEntity
  8
Level 13
  6
Continuous
 62
     3
420
    65280
370
     5
100
AcDbLine
 10
538.310999667832
 20
1010.19437716834
 30
0.0
 11
749.547078562484
 21
1163.57805292412
 31
0.0
  0
ARC
  5
4B
330
1F
100
AcDbEntity
  8
Level 13
  6
Continuous
 62
     3
420
    65280
370
     5
100
AcDbCircle
 10
872.575702944333
 20
1014.39844411694
 30
0.0
 40
5.0
100
AcDbArc
 50
216.563043243759
 51
305.984317678152
  0
LINE
  5
4C
330
1F
100
AcDbEntity
  8
Level 13
  6
Continuous
 62
     3
420
    65280
370
     5
100
AcDbLine
 10
756.500906958076
 20
1162.51069829567
 30
0.0
 11
868.559693527404
 21
1011.41990951698
 31
0.0
  0
ARC
  5
4D
330
1F
100
AcDbEntity
  8
Level 13
  6
Continuous
 62
     3
420
    65280
370
     5
100
AcDbCircle
 10
1087.29974626485
 20
1157.95659335222
 30
0.0
 40
5.0
100
AcDbArc
 50
36.5515840880099
 51
125.984317678152
  0
LINE
  5
4E
330
1F
100
AcDbEntity
  8
Level 13
  6
Continuous
 62
     3
420
    65280
370
     5
100
AcDbLine
 10
875.513521922996
 20
1010.35255488852
 30
0.0
 11
1084.36192728619
 21
1162.00248258064
 31
0.0
  0
ARC
  5
4F
330
1F
100
AcDbEntity
  8
Level 13
  6
Continuous
 62
     3
420
    65280
370
     5
100
AcDbCircle
 10
1209.68730613974
 20
1009.66165332689
 30
0.0
 40
5.0
100
AcDbArc
 50
216.55158408801
 51
307.045229368417
  0
LINE
  5
50
330
1F
100
AcDbEntity
  8
Level 13
  6
Continuous
 62
     3
420
    65280
370
     5
100
AcDbLine
 10
1091.31635130837
 20
1160.93432469074
 30
0.0
 11
1205.67070109622
 21
1006.68392198837
 31
0.0
  0
ARC
  5
51
330
1F
100
AcDbEntity
  8
Level 13
  6
Continuous
 62
     3
420
    65280
370
     5
100
AcDbCircle
 10
1423.16123579761
 20
1158.26134931368
 30
0.0
 40
5.0
100
AcDbArc
 50
35.9843176781523
 51
127.045229368417
  0
LINE
  5
52
330
1F
100
AcDbEntity
  8
Level 13
  6
Continuous
 62
     3
420
    65280
370
     5
100
AcDbLine
 10
1212.69953253755
 20
1005.67085238869
 30
0.0
 11
1420.1490093998
 21
1162.25215025188
 31
0.0
  0
ARC
  5
53
330
1F
100
AcDbEntity
  8
Level 13
  6
Continuous
 62
     3
420
    65280
370
     5
100
AcDbCircle
 10
1545.71730554838
 20
1006.4996901646
 30
0.0
 40
5.0
100
AcDbArc
 50
215.984317678152
 51
307.061179198755
  0
LINE
  5
54
330
1F
100
AcDbEntity
  8
Level 13
  6
Continuous
 62
     3
420
    65280
370
     5
100
AcDbLine
 10
1541.67141631996
 20
1003.56187118594
 30
0.0
 11
1427.20712502603
 21
1161.19916829234
 31
0.0
  0
ARC
  5
55
330
1F
100
AcDbEntity
  8
Level 13
  6
Continuous
 62
     3
420
    65280
370
     5
100
AcDbCircle
 10
1755.99565091251
 20
1152.77665471425
 30
0.0
 40
5.0
100
AcDbArc
 50
37.1159389973341
 51
127.061179198755
  0
LINE
  5
56
330
1F
100
AcDbEntity
  8
Level 13
  6
Continuous
 62
     3
420
    65280
370
     5
100
AcDbLine
 10
1548.73064277687
 20
1002.50972791574
 30
0.0
 11
1752.98231368402
 21
1156.76661696312
 31
0.0
  0
ARC
  5
57
330
1F
100
AcDbEntity
  8
Level 13
  6
Continuous
 62
     3
420
    65280
370
     5
100
AcDbCircle
 10
1880.16531669094
 20
1005.2617599751
 30
0.0
 40
5.0
100
AcDbArc
 50
217.115938997334
 51
306.953514728527
  0
LINE
  5
58
330
1F
100
AcDbEntity
  8
Level 13
  6
Continuous
 62
     3
420
    65280
370
     5
100
AcDbLine
 10
1759.98273137627
 20
1155.79380392758
 30
0.0
 11
1876.17823622718
 21
1002.24461076177
 31
0.0
  0
ARC
  5
59
330
1F
100
AcDbEntity
  8
Level 13
  6
Continuous
 62
     3
420
    65280
370
     5
100
AcDbCircle
 10
2090.72616434141
 20
1151.1493543899
 30
0.0
 40
5.0
100
AcDbArc
 50
35.9843176781523
 51
126.953514728527
  0
LINE
  5
5A
330
1F
100
AcDbEntity
  8
Level 13
  6
Continuous
 62
     3
420
    65280
370
     5
100
AcDbLine
 10
1883.17115106774
 20
1001.26614241341
 30
0.0
 11
2087.72032996461
 21
1155.14497195159
 31
0.0
  0
ARC
  5
5B
330
1F
100
AcDbEntity
  8
Level 13
  6
Continuous
 62
     3
420
    65280
370
     5
100
AcDbCircle
 10
2209.81737988237
 20
1004.15940392243
 30
0.0
 40
5.0
100
AcDbArc
 50
215.984317678152
 51
305.984317678152
  0
LINE
  5
5C
330
1F
100
AcDbEntity
  8
Level 13
  6
Continuous
 62
     3
420
    65280
370
     5
100
AcDbLine
 10
2205.77149065396
 20
1001.22158494376
 30
0.0
 11
2094.77205356982
 21
1154.08717336857
 31
0.0
  0
ARC
  5
5D
330
1F
100
AcDbEntity
  8
Level 13
  6
Continuous
 62
     3
420
    65280
370
     5
100
AcDbCircle
 10
2424.50056664882
 20
1147.68788621599
 30
0.0
 40
5.0
100
AcDbArc
 50
36.5487898534588
 51
125.984317678152
  0
LINE
  5
5E
330
1F
100
AcDbEntity
  8
Level 13
  6
Continuous
 62
     3
420
    65280
370
     5
100
AcDbLine
 10
2212.75519886104
 20
1000.11351469401
 30
0.0
 11
2421.56274767016
 21
1151.7337754444
 31
0.0
  0
ARC
  5
5F
330
1F
100
AcDbEntity
  8
Level 13
  6
Continuous
 62
     3
420
    65280
370
     5
100
AcDbCircle
 10
2547.53118412763
 20
998.509724645184
 30
0.0
 40
5.0
100
AcDbArc
 50
216.548789853459
 51
305.984317678152
  0
LINE
  5
60
330
1F
100
AcDbEntity
  8
Level 13
  6
Continuous
 62
     3
420
    65280
370
     5
100
AcDbLine
 10
2428.51731690733
 20
1150.66542166679
 30
0.0
 11
2543.51443386912
 21
995.532189194383
 31
0.0
  0
ARC
  5
61
330
1F
100
AcDbEntity
  8
Level 13
  6
Continuous
 62
     3
420
    65280
370
     5
100
AcDbCircle
 10
2759.78683735703
 20
1140.27551555155
 30
0.0
 40
5.0
100
AcDbArc
 50
35.9843176781523
 51
125.984317678152
  0
LINE
  5
62
330
1F
100
AcDbEntity
  8
Level 13
  6
Continuous
 62
     3
420
    65280
370
     5
100
AcDbLine
 10
2550.4690031063
 20
994.463835416768
 30
0.0
 11
2756.84901837837
 21
1144.32140477996
 31
0.0
  0
ARC
  5
63
330
1F
100
AcDbEntity
  8
Level 13
  6
Continuous
 62
     3
420
    65280
370
     5
100
AcDbCircle
 10
2876.57791802439
 20
996.453252057504
 30
0.0
 40
5.0
100
AcDbArc
 50
215.984317678152
 51
305.984317678152
  0
LINE
  5
64
330
1F
100
AcDbEntity
  8
Level 13
  6
Continuous
 62
     3
420
    65280
370
     5
100
AcDbLine
 10
2872.53202879598
 20
993.515433078841
 30
0.0
 11
2763.83272658545
 21
1143.21333453021
 31
0.0
  0
ARC
  5
65
330
1F
100
AcDbEntity
  8
Level 13
  6
Continuous
 62
     3
420
    65280
370
     5
100
AcDbCircle
 10
3087.98472878522
 20
1137.60267771675
 30
0.0
 40
5.0
100
AcDbArc
 50
35.9843176781523
 51
125.984317678152
  0
LINE
  5
66
330
1F
100
AcDbEntity
  8
Level 13
  6
Continuous
 62
     3
420
    65280
370
     5
100
AcDbLine
 10
2879.51573700306
 20
992.407362829088
 30
0.0
 11
3085.04690980656
 21
1141.64856694517
 31
0.0
  0
ARC
  5
67
330
1F
100
AcDbEntity
  8
Level 13
  6
Continuous
 62
     3
420
    65280
370
     5
100
AcDbCircle
 10
3208.30119222698
 20
988.925347148612
 30
0.0
 40
5.0
100
AcDbArc
 50
215.984317678152
 51
305.984317678152
  0
LINE
  5
68
330
1F
100
AcDbEntity
  8
Level 13
  6
Continuous
 62
     3
420
    65280
370
     5
100
AcDbLine
 10
3204.25530299856
 20
985.987528169949
 30
0.0
 11
3092.03061801364
 21
1140.54049669542
 31
0.0
  0
ARC
  5
69
330
1F
100
AcDbEntity
  8
Level 13
  6
Continuous
 62
     3
420
    65280
370
     5
100
AcDbCircle
 10
3418.93969166241
 20
1129.51688319057
 30
0.0
 40
5.0
100
AcDbArc
 50
36.5659807356577
 51
125.984317678152
  0
LINE
  5
6A
330
1F
100
AcDbEntity
  8
Level 13
  6
Continuous
 62
     3
420
    65280
370
     5
100
AcDbLine
 10
3211.23901120564
 20
984.879457920197
 30
0.0
 11
3416.00187268375
 21
1133.56277241898
 31
0.0
  0
ARC
  5
6B
330
1F
100
AcDbEntity
  8
Level 13
  6
Continuous
 62
     3
420
    65280
370
     5
100
AcDbCircle
 10
3538.44252257202
 20
985.192043239747
 30
0.0
 40
5.0
100
AcDbArc
 50
216.565980735658
 51
305.984317678152
  0
LINE
  5
6C
330
1F
100
AcDbEntity
  8
Level 13
  6
Continuous
 62
     3
420
    65280
370
     5
100
AcDbLine
 10
3422.95554836786
 20
1132.49562368302
 30
0.0
 11
3534.42666586658
 21
982.213302747298
 31
0.0
  0
ARC
  5
6D
330
1F
100
AcDbEntity
  8
Level 13
  6
Continuous
 62
     3
420
    65280
370
     5
100
AcDbCircle
 10
3749.89019985314
 20
1126.37114307743
 30
0.0
 40
5.0
100
AcDbArc
 50
35.9843176781523
 51
125.984317678152
  0
LINE
  5
6E
330
1F
100
AcDbEntity
  8
Level 13
  6
Continuous
 62
     3
420
    65280
370
     5
100
AcDbLine
 10
3753.93608908156
 20
1129.3089620561
 30
0.0
 11
3866.74833786221
 21
973.946815684948
 31
0.0
  0
LINE
  5
6F
330
1F
100
AcDbEntity
  8
Level 13
  6
Continuous
 62
     3
420
    65280
370
     5
100
AcDbLine
 10
3541.38034155068
 20
981.146154011331
 30
0.0
 11
3746.95238087448
 21
1130.41703230585
 31
0.0
  0
ENDSEC
  0
SECTION
  2
OBJECTS
  0
DICTIONARY
  5
C
330
0
100
AcDbDictionary
281
     1
  3
ACAD_GROUP
350
D
  3
ACAD_LAYOUT
350
1A
  3
ACAD_MLINESTYLE
350
17
  3
ACAD_PLOTSETTINGS
350
19
  3
ACAD_PLOTSTYLENAME
350
E
  0
DICTIONARY
  5
D
102
{ACAD_REACTORS
330
C
102
}
330
C
100
AcDbDictionary
281
     1
  0
DICTIONARY
  5
1A
102
{ACAD_REACTORS
330
C
102
}
330
C
100
AcDbDictionary
281
     1
  3
Layout1
350
1E
  3
Layout2
350
26
  3
Model
350
22
  0
DICTIONARY
  5
17
102
{ACAD_REACTORS
330
C
102
}
330
C
100
AcDbDictionary
281
     1
  3
Standard
350
18
  0
DICTIONARY
  5
19
102
{ACAD_REACTORS
330
C
102
}
330
C
100
AcDbDictionary
281
     1
  0
ACDBDICTIONARYWDFLT
  5
E
102
{ACAD_REACTORS
330
C
102
}
330
C
100
AcDbDictionary
281
     1
  3
Normal
350
F
100
AcDbDictionaryWithDefault
340
F
  0
LAYOUT
  5
1E
102
{ACAD_REACTORS
330
1A
102
}
330
1A
100
AcDbPlotSettings
  1

  2

  4

  6

 40
0.0
 41
0.0
 42
0.0
 43
0.0
 44
0.0
 45
0.0
 46
0.0
 47
0.0
 48
0.0
 49
0.0
140
0.0
141
0.0
142
1.0
143
1.0
 70
   688
 72
     0
 73
     0
 74
     5
  7

 75
    16
 76
     0
 77
     2
 78
   300
147
1.0
148
0.0
149
0.0
100
AcDbLayout
  1
Layout1
 70
     1
 71
     1
 10
0.0
 20
0.0
 11
420.0
 21
297.0
 12
0.0
 22
0.0
 32
0.0
 14
1.000000000000000E+20
 24
1.000000000000000E+20
 34
1.000000000000000E+20
 15
-1.000000000000000E+20
 25
-1.000000000000000E+20
 35
-1.000000000000000E+20
146
0.0
 13
0.0
 23
0.0
 33
0.0
 16
1.0
 26
0.0
 36
0.0
 17
0.0
 27
1.0
 37
0.0
 76
     0
330
1B
  0
LAYOUT
  5
26
102
{ACAD_REACTORS
330
1A
102
}
330
1A
100
AcDbPlotSettings
  1

  2

  4

  6

 40
0.0
 41
0.0
 42
0.0
 43
0.0
 44
0.0
 45
0.0
 46
0.0
 47
0.0
 48
0.0
 49
0.0
140
0.0
141
0.0
142
1.0
143
1.0
 70
   688
 72
     0
 73
     0
 74
     5
  7

 75
    16
 76
     0
 77
     2
 78
   300
147
1.0
148
0.0
149
0.0
100
AcDbLayout
  1
Layout2
 70
     1
 71
     2
 10
0.0
 20
0.0
 11
0.0
 21
0.0
 12
0.0
 22
0.0
 32
0.0
 14
0.0
 24
0.0
 34
0.0
 15
0.0
 25
0.0
 35
0.0
146
0.0
 13
0.0
 23
0.0
 33
0.0
 16
1.0
 26
0.0
 36
0.0
 17
0.0
 27
1.0
 37
0.0
 76
     0
330
23
  0
LAYOUT
  5
22
102
{ACAD_REACTORS
330
1A
102
}
330
1A
100
AcDbPlotSettings
  1

  2

  4

  6

 40
0.0
 41
0.0
 42
0.0
 43
0.0
 44
0.0
 45
0.0
 46
0.0
 47
0.0
 48
0.0
 49
0.0
140
0.0
141
0.0
142
1.0
143
1.0
 70
  1712
 72
     0
 73
     0
 74
     0
  7

 75
     0
 76
     0
 77
     2
 78
   300
147
1.0
148
0.0
149
0.0
100
AcDbLayout
  1
Model
 70
     1
 71
     0
 10
0.0
 20
0.0
 11
420.0
 21
297.0
 12
0.0
 22
0.0
 32
0.0
 14
32.42229611
 24
184.56226216
 34
0.0
 15
1168.72677481
 25
0.0
 35
0.0
146
0.0
 13
0.0
 23
0.0
 33
0.0
 16
1.0
 26
0.0
 36
0.0
 17
0.0
 27
1.0
 37
0.0
 76
     0
330
1F
  0
MLINESTYLE
  5
18
102
{ACAD_REACTORS
330
17
102
}
330
17
100
AcDbMlineStyle
  2
Standard
 70
     0
  3

 62
   256
 51
90.0
 52
90.0
 71
     2
 49
0.5
 62
   256
  6
BYLAYER
 49
-0.5
 62
   256
  6
BYLAYER
  0
ACDBPLACEHOLDER
  5
F
102
{ACAD_REACTORS
330
E
102
}
330
E
  0
ENDSEC
  0
EOF
